"Noite Feliz" - Dedilhado para Iniciantes



Noite Feliz Solo Fácil

Rodrigo Prestes

Composição: Letra de: Joseph Mohr / Música de: Franz Gruber
Tom: D
E|-------------------------------------5--5-------3--3--------------|
B|----3--5--3--0----3--5--3--0---------------7-----------3----------|
G|------------------------------------------------------------------|
D|------------------------------------------------------------------|
A|------------------------------------------------------------------|
E|------------------------------------------------------------------|

E|----0--0--3--2--0------------------0--0--3--2--0------------------|
B|---------------------3--5--3--0----------------------3--5--3--0---|
G|------------------------------------------------------------------|
D|------------------------------------------------------------------|
A|------------------------------------------------------------------|
E|------------------------------------------------------------------|

E|----5--5--8--5---------7---------3--------------------------------|
B|-----------------7--8----------------3--0--3--1-------------------|
G|----------------------------------------------------2--0----------|
D|------------------------------------------------------------------|
A|------------------------------------------------------------------|
E|------------------------------------------------------------------|

(Repete tudo)

    Comentários